• Go Down Moses

  • КиноМарафон!!


  • Learn to play "Mad Mad World" with online video lessons

    Mad Mad world by: Gary Jules
    Tabbed by: Jake9545
    standard tunning.

    I put this together for timing and o you can learn
    the lyrics to this great song when playing. enjoy
    and please rate!!!!

    intro:

    e----8--------------------------------|
    b-9-----8--9--6--8-----------6-----6--|
    g-------------------8--7-----7-----7--|
    d-------------------------8-----8-----|
    a-------------------------------------|
    e-------------------------------------|

    e----8--------------------------------|
    b-9-----8--9--6--8--9--11----11---11--|
    g----------------------------10---10--|
    d--------------------------8----8-----|
    a-------------------------------------|
    e-------------------------------------|

    verse:

    e------------------------------------|
    b------------------------4-------4---|
    g-----5-------5----------5-------5---|
    d-----6-------6------6-------6-------|
    a-8-------8--------------------------|
    e------------------------------------|
    All around me are familiar faces

    e------------------------------------|
    b------------------------6-------6---|
    g-----3-------3----------7-------7---|
    d-----5-------5------8-------8-------|
    a-6-------6--------------------------|
    e------------------------------------|
    Worn out places, worn out faces

    e------------------------------------|
    b------------------------4-------4---|
    g-----5-------5----------5-------5---|
    d-----6-------6------6-------6-------|
    a-8-------8--------------------------|
    e------------------------------------|
    Bright and early for their daily races

    e------------------------------------|
    b------------------------6-------6---|
    g-----3-------3----------7-------7---|
    d-----5-------5------8-------8-------|
    a-6-------6--------------------------|
    e------------------------------------|
    Going nowhere, going nowhere

    e------------------------------------|
    b------------------------4-------4---|
    g-----5-------5----------5-------5---|
    d-----6-------6------6-------6-------|
    a-8-------8--------------------------|
    e------------------------------------|
    Their tears are filling up their glasses

    e------------------------------------|
    b------------------------6-------6---|
    g-----3-------3----------7-------7---|
    d-----5-------5------8-------8-------|
    a-6-------6--------------------------|
    e------------------------------------|
    No expression, no expression

    e------------------------------------|
    b------------------------4-------4---|
    g-----5-------5----------5-------5---|
    d-----6-------6------6-------6-------|
    a-8-------8--------------------------|
    e------------------------------------|
    Hide my head I want to drown my sorrow

    e------------------------------------|
    b------------------------6-------6---|
    g-----3-------3----------7-------7---|
    d-----5-------5------8-------8-------|
    a-6-------6--------------------------|
    e------------------------------------|
    No tomorrow, no tomorrow

    e------------------------------------|
    b------------------------6-------6---|
    g-----5-------5----------7-------7---|
    d-----6-------6------8-------8-------|
    a-8-------8--------------------------|
    e------------------------------------|
    And I find it kind of funny I find it kind of

    e------------------------------------|
    b------------------------6-------6---|
    g-----5-------5----------7-------7---|
    d-----6-------6------8-------8-------|
    a-8-------8--------------------------|
    e------------------------------------|
    sad The dreams in which I'm dying Are the best I've ever

    e------------------------------------|
    b------------------------6-------6---|
    g-----5-------5----------7-------7---|
    d-----6-------6------8-------8-------|
    a-8-------8--------------------------|
    e------------------------------------|
    had I find it hard to tell you I find it hard to

    e------------------------------------|
    b------------------------6-------6---|
    g-----5-------5----------7-------7---|
    d-----6-------6------8-------8-------|
    a-8-------8--------------------------|
    e------------------------------------|
    take When people run in circles It's a very, very

    e----8--------------------------------|
    b-9-----8--9--6--8-----------6-----6--|
    g-------------------8--7-----7-----7--|
    d-------------------------8-----8-----|
    a-------------------------------------|
    e-------------------------------------|
    Mad World

    e----8--------------------------------|
    b-9-----8--9--6--8--9--11----11---11--|
    g----------------------------10---10--|
    d--------------------------8----8-----|
    a-------------------------------------|
    Mad World

    (then repeat for the rest of the song:)

    Children waiting for the day they feel good
    Happy Birthday, Happy Birthday
    And I feel the way that every child should
    Sit and listen, sit and listen
    Went to school and I was very nervous
    No one knew me, no one knew me
    Hello teacher tell me what's my lesson
    Look right through me, look right through me
    And I find it kind of funny
    I find it kind of sad
    The dreams in which I'm dying
    Are the best I've ever had
    I find it hard to tell you
    I find it hard to take
    When people run in circles
    It's a very, very
    Mad World
    Mad World
    Enlarging your world
    Mad World.

    Outro:

    e-------------------------------------|
    b-9--9--8--8--6--6-----------6-----6--|
    g-------------------8--7-----7-----7--|
    d-------------------------8-----8-----|
    a-------------------------------------|
    e-------------------------------------|
    Enlarging your world

    e---------------------------|
    b-9--9--8--8--6--6--------6-|
    g-------------------8--7--7-|
    d-------------------------8-|
    a---------------------------|
    e---------------------------|
    Mad World.

    the end...


































































































































  • Go Down Moses

  • КиноМарафон!!